ISO-10303-21;
HEADER;
/* Generated by software containing ST-Developer
 * from STEP Tools, Inc. (www.steptools.com) 
 */

FILE_DESCRIPTION(
/* description */ (''),
/* implementation_level */ '2;1');

FILE_NAME(
/* name */ 'BH80.dxf',
/* time_stamp */ '2012-11-23T15:11:10+08:00',
/* author */ (''),
/* organization */ (''),
/* preprocessor_version */ 'ST-DEVELOPER v9',
/* originating_system */ 'UGS - NX 4.0',
/* authorisation */ '');

FILE_SCHEMA (('CONFIG_CONTROL_DESIGN'));
ENDSEC;

DATA;
#10=SHAPE_REPRESENTATION_RELATIONSHIP('None',
'relationship between Admi25EFxim5-None and Admi25EFxim5-None',#94,#11);
#11=ADVANCED_BREP_SHAPE_REPRESENTATION('Admi25EFxim5-None',(#95),#251);
#12=CC_DESIGN_APPROVAL(#24,(#82));
#13=CC_DESIGN_APPROVAL(#25,(#84));
#14=CC_DESIGN_APPROVAL(#26,(#31));
#15=APPROVAL_PERSON_ORGANIZATION(#69,#24,#18);
#16=APPROVAL_PERSON_ORGANIZATION(#70,#25,#19);
#17=APPROVAL_PERSON_ORGANIZATION(#71,#26,#20);
#18=APPROVAL_ROLE('approver');
#19=APPROVAL_ROLE('approver');
#20=APPROVAL_ROLE('approver');
#21=APPROVAL_DATE_TIME(#39,#24);
#22=APPROVAL_DATE_TIME(#40,#25);
#23=APPROVAL_DATE_TIME(#41,#26);
#24=APPROVAL(#27,' ');
#25=APPROVAL(#28,' ');
#26=APPROVAL(#29,' ');
#27=APPROVAL_STATUS('not_yet_approved');
#28=APPROVAL_STATUS('not_yet_approved');
#29=APPROVAL_STATUS('not_yet_approved');
#30=CC_DESIGN_SECURITY_CLASSIFICATION(#31,(#84));
#31=SECURITY_CLASSIFICATION(' ',' ',#32);
#32=SECURITY_CLASSIFICATION_LEVEL('confidential');
#33=CC_DESIGN_DATE_AND_TIME_ASSIGNMENT(#37,#35,(#82));
#34=CC_DESIGN_DATE_AND_TIME_ASSIGNMENT(#38,#36,(#31));
#35=DATE_TIME_ROLE('creation_date');
#36=DATE_TIME_ROLE('classification_date');
#37=DATE_AND_TIME(#52,#42);
#38=DATE_AND_TIME(#53,#43);
#39=DATE_AND_TIME(#54,#44);
#40=DATE_AND_TIME(#55,#45);
#41=DATE_AND_TIME(#56,#46);
#42=LOCAL_TIME(0,0,0.,#47);
#43=LOCAL_TIME(0,0,0.,#48);
#44=LOCAL_TIME(0,0,0.,#49);
#45=LOCAL_TIME(0,0,0.,#50);
#46=LOCAL_TIME(0,0,0.,#51);
#47=COORDINATED_UNIVERSAL_TIME_OFFSET(0,0,.BEHIND.);
#48=COORDINATED_UNIVERSAL_TIME_OFFSET(0,0,.BEHIND.);
#49=COORDINATED_UNIVERSAL_TIME_OFFSET(0,0,.BEHIND.);
#50=COORDINATED_UNIVERSAL_TIME_OFFSET(0,0,.BEHIND.);
#51=COORDINATED_UNIVERSAL_TIME_OFFSET(0,0,.BEHIND.);
#52=CALENDAR_DATE(0,1,1);
#53=CALENDAR_DATE(0,1,1);
#54=CALENDAR_DATE(0,1,1);
#55=CALENDAR_DATE(0,1,1);
#56=CALENDAR_DATE(0,1,1);
#57=CC_DESIGN_PERSON_AND_ORGANIZATION_ASSIGNMENT(#65,#61,(#82,#84));
#58=CC_DESIGN_PERSON_AND_ORGANIZATION_ASSIGNMENT(#66,#62,(#86));
#59=CC_DESIGN_PERSON_AND_ORGANIZATION_ASSIGNMENT(#67,#63,(#84));
#60=CC_DESIGN_PERSON_AND_ORGANIZATION_ASSIGNMENT(#68,#64,(#31));
#61=PERSON_AND_ORGANIZATION_ROLE('creator');
#62=PERSON_AND_ORGANIZATION_ROLE('design_owner');
#63=PERSON_AND_ORGANIZATION_ROLE('design_supplier');
#64=PERSON_AND_ORGANIZATION_ROLE('classification_officer');
#65=PERSON_AND_ORGANIZATION(#79,#72);
#66=PERSON_AND_ORGANIZATION(#79,#73);
#67=PERSON_AND_ORGANIZATION(#79,#74);
#68=PERSON_AND_ORGANIZATION(#79,#75);
#69=PERSON_AND_ORGANIZATION(#79,#76);
#70=PERSON_AND_ORGANIZATION(#79,#77);
#71=PERSON_AND_ORGANIZATION(#79,#78);
#72=ORGANIZATION(' ',' ',' ');
#73=ORGANIZATION(' ',' ',' ');
#74=ORGANIZATION(' ',' ',' ');
#75=ORGANIZATION(' ',' ',' ');
#76=ORGANIZATION(' ',' ',' ');
#77=ORGANIZATION(' ',' ',' ');
#78=ORGANIZATION(' ',' ',' ');
#79=PERSON(' ',' ',' ',(' '),$,$);
#80=SHAPE_DEFINITION_REPRESENTATION(#81,#94);
#81=PRODUCT_DEFINITION_SHAPE('','',#82);
#82=PRODUCT_DEFINITION(' ','',#84,#83);
#83=DESIGN_CONTEXT('',#93,'design');
#84=PRODUCT_DEFINITION_FORMATION_WITH_SPECIFIED_SOURCE(' ',' ',#86,.NOT_KNOWN.);
#85=PRODUCT_RELATED_PRODUCT_CATEGORY('detail','',(#86));
#86=PRODUCT('Admi25EFxim5','Admi25EFxim5',' ',(#91));
#87=PRODUCT_CATEGORY_RELATIONSHIP(' ',' ',#89,#90);
#88=PRODUCT_CATEGORY_RELATIONSHIP('','',#90,#85);
#89=PRODUCT_CATEGORY('part',' ');
#90=PRODUCT_CATEGORY(' ','');
#91=MECHANICAL_CONTEXT(' ',#93,'mechanical');
#92=APPLICATION_PROTOCOL_DEFINITION('international standard',
'config_control_design',1994,#93);
#93=APPLICATION_CONTEXT(
'configuration controlled 3D designs of mechanical parts and assemblies
');
#94=SHAPE_REPRESENTATION('Admi25EFxim5-None',(#179),#251);
#95=MANIFOLD_SOLID_BREP('',#96);
#96=CLOSED_SHELL('',(#108,#109,#110,#111,#112,#113,#114,#115));
#97=TOROIDAL_SURFACE('',#193,6.95519795082235,1.);
#98=CONICAL_SURFACE('',#187,0.,59.9999999999993);
#99=CONICAL_SURFACE('',#194,4.49999999999997,2.96667161401748);
#100=VERTEX_LOOP('',#161);
#101=CYLINDRICAL_SURFACE('',#186,2.5);
#102=CYLINDRICAL_SURFACE('',#191,6.49999999999995);
#103=PLANE('',#184);
#104=FACE_OUTER_BOUND('',#131,.T.);
#105=FACE_OUTER_BOUND('',#135,.T.);
#106=FACE_OUTER_BOUND('',#136,.T.);
#107=FACE_OUTER_BOUND('',#141,.T.);
#108=ADVANCED_FACE('',(#118,#119),#116,.T.);
#109=ADVANCED_FACE('',(#104,#120),#103,.T.);
#110=ADVANCED_FACE('',(#121,#122),#101,.F.);
#111=ADVANCED_FACE('',(#105,#123),#98,.F.);
#112=ADVANCED_FACE('',(#106),#117,.T.);
#113=ADVANCED_FACE('',(#124,#125),#102,.T.);
#114=ADVANCED_FACE('',(#126,#127),#97,.F.);
#115=ADVANCED_FACE('',(#107,#128),#99,.T.);
#116=SPHERICAL_SURFACE('',#182,10.);
#117=SPHERICAL_SURFACE('',#189,11.);
#118=FACE_BOUND('',#129,.T.);
#119=FACE_BOUND('',#130,.T.);
#120=FACE_BOUND('',#132,.T.);
#121=FACE_BOUND('',#133,.T.);
#122=FACE_BOUND('',#134,.T.);
#123=FACE_BOUND('',#100,.T.);
#124=FACE_BOUND('',#137,.T.);
#125=FACE_BOUND('',#138,.T.);
#126=FACE_BOUND('',#139,.T.);
#127=FACE_BOUND('',#140,.T.);
#128=FACE_BOUND('',#142,.T.);
#129=EDGE_LOOP('',(#143));
#130=EDGE_LOOP('',(#144));
#131=EDGE_LOOP('',(#145));
#132=EDGE_LOOP('',(#146));
#133=EDGE_LOOP('',(#147));
#134=EDGE_LOOP('',(#148));
#135=EDGE_LOOP('',(#149));
#136=EDGE_LOOP('',(#150));
#137=EDGE_LOOP('',(#151));
#138=EDGE_LOOP('',(#152));
#139=EDGE_LOOP('',(#153));
#140=EDGE_LOOP('',(#154));
#141=EDGE_LOOP('',(#155));
#142=EDGE_LOOP('',(#156));
#143=ORIENTED_EDGE('',*,*,#165,.T.);
#144=ORIENTED_EDGE('',*,*,#166,.F.);
#145=ORIENTED_EDGE('',*,*,#165,.F.);
#146=ORIENTED_EDGE('',*,*,#167,.T.);
#147=ORIENTED_EDGE('',*,*,#168,.T.);
#148=ORIENTED_EDGE('',*,*,#167,.F.);
#149=ORIENTED_EDGE('',*,*,#168,.F.);
#150=ORIENTED_EDGE('',*,*,#169,.T.);
#151=ORIENTED_EDGE('',*,*,#169,.F.);
#152=ORIENTED_EDGE('',*,*,#170,.T.);
#153=ORIENTED_EDGE('',*,*,#170,.F.);
#154=ORIENTED_EDGE('',*,*,#171,.T.);
#155=ORIENTED_EDGE('',*,*,#171,.F.);
#156=ORIENTED_EDGE('',*,*,#166,.T.);
#157=VERTEX_POINT('',#229);
#158=VERTEX_POINT('',#231);
#159=VERTEX_POINT('',#234);
#160=VERTEX_POINT('',#237);
#161=VERTEX_POINT('',#239);
#162=VERTEX_POINT('',#242);
#163=VERTEX_POINT('',#245);
#164=VERTEX_POINT('',#248);
#165=EDGE_CURVE('',#157,#157,#172,.T.);
#166=EDGE_CURVE('',#158,#158,#173,.T.);
#167=EDGE_CURVE('',#159,#159,#174,.T.);
#168=EDGE_CURVE('',#160,#160,#175,.T.);
#169=EDGE_CURVE('',#162,#162,#176,.T.);
#170=EDGE_CURVE('',#163,#163,#177,.T.);
#171=EDGE_CURVE('',#164,#164,#178,.T.);
#172=CIRCLE('',#180,8.00000000000001);
#173=CIRCLE('',#181,4.49999999999997);
#174=CIRCLE('',#183,2.5);
#175=CIRCLE('',#185,2.5);
#176=CIRCLE('',#188,6.50000000000009);
#177=CIRCLE('',#190,6.49999999999981);
#178=CIRCLE('',#192,5.95651830924173);
#179=AXIS2_PLACEMENT_3D('',#227,#195,#196);
#180=AXIS2_PLACEMENT_3D('',#228,#197,#198);
#181=AXIS2_PLACEMENT_3D('',#230,#199,#200);
#182=AXIS2_PLACEMENT_3D('',#232,#201,#202);
#183=AXIS2_PLACEMENT_3D('',#233,#203,#204);
#184=AXIS2_PLACEMENT_3D('',#235,#205,#206);
#185=AXIS2_PLACEMENT_3D('',#236,#207,#208);
#186=AXIS2_PLACEMENT_3D('',#238,#209,#210);
#187=AXIS2_PLACEMENT_3D('',#240,#211,#212);
#188=AXIS2_PLACEMENT_3D('',#241,#213,#214);
#189=AXIS2_PLACEMENT_3D('',#243,#215,#216);
#190=AXIS2_PLACEMENT_3D('',#244,#217,#218);
#191=AXIS2_PLACEMENT_3D('',#246,#219,#220);
#192=AXIS2_PLACEMENT_3D('',#247,#221,#222);
#193=AXIS2_PLACEMENT_3D('',#249,#223,#224);
#194=AXIS2_PLACEMENT_3D('',#250,#225,#226);
#195=DIRECTION('',(0.,0.,1.));
#196=DIRECTION('',(1.,0.,0.));
#197=DIRECTION('',(0.,1.,0.));
#198=DIRECTION('',(0.,0.,-1.));
#199=DIRECTION('',(0.939692620785909,0.342020143325668,0.));
#200=DIRECTION('',(-0.342020143325667,0.939692620785909,0.));
#201=DIRECTION('',(0.,0.999999999999999,0.));
#202=DIRECTION('',(-1.,0.,0.));
#203=DIRECTION('',(0.,1.,0.));
#204=DIRECTION('',(0.,0.,1.));
#205=DIRECTION('',(0.,-1.,0.));
#206=DIRECTION('',(0.,0.,-1.));
#207=DIRECTION('',(0.,1.,0.));
#208=DIRECTION('',(0.,0.,1.));
#209=DIRECTION('',(0.,1.,0.));
#210=DIRECTION('',(0.,0.,1.));
#211=DIRECTION('',(0.,-1.,0.));
#212=DIRECTION('',(0.,1.60246890531968E-017,-1.));
#213=DIRECTION('',(0.939692620785909,0.342020143325668,0.));
#214=DIRECTION('',(-0.34202014332567,0.93969262078591,0.));
#215=DIRECTION('',(0.93969262078591,0.342020143325669,0.));
#216=DIRECTION('',(-0.342020143325669,0.93969262078591,0.));
#217=DIRECTION('',(0.939692620785909,0.342020143325668,0.));
#218=DIRECTION('',(-0.342020143325668,0.939692620785909,0.));
#219=DIRECTION('',(0.939692620785909,0.342020143325668,0.));
#220=DIRECTION('',(-0.342020143325668,0.939692620785909,0.));
#221=DIRECTION('',(0.939692620785909,0.342020143325668,0.));
#222=DIRECTION('',(-0.34202014332567,0.939692620785908,0.));
#223=DIRECTION('',(0.939692620785909,0.342020143325668,0.));
#224=DIRECTION('',(-0.34202014332567,0.93969262078591,0.));
#225=DIRECTION('',(0.939692620785909,0.342020143325668,0.));
#226=DIRECTION('',(-0.342020143325666,0.93969262078591,0.));
#227=CARTESIAN_POINT('',(0.,0.,0.));
#228=CARTESIAN_POINT('',(150.,114.,0.));
#229=CARTESIAN_POINT('',(150.,114.,-8.00000000000001));
#230=CARTESIAN_POINT('',(158.391723432607,123.054337543663,0.));
#231=CARTESIAN_POINT('',(156.852632787642,127.2829543372,0.));
#232=CARTESIAN_POINT('',(150.,120.,0.));
#233=CARTESIAN_POINT('',(150.,114.,0.));
#234=CARTESIAN_POINT('',(150.,114.,2.5));
#235=CARTESIAN_POINT('',(142.,114.,-37.5));
#236=CARTESIAN_POINT('',(150.,124.,0.));
#237=CARTESIAN_POINT('',(150.,124.,2.5));
#238=CARTESIAN_POINT('',(150.,135.,0.));
#239=CARTESIAN_POINT('',(150.,125.443375672974,0.));
#240=CARTESIAN_POINT('',(150.,125.443375672974,0.));
#241=CARTESIAN_POINT('',(223.177735608467,146.634517572484,0.));
#242=CARTESIAN_POINT('',(220.95460467685,152.742519607592,0.));
#243=CARTESIAN_POINT('',(214.838790834228,143.599389889471,0.));
#244=CARTESIAN_POINT('',(185.590030777027,132.953711839456,0.));
#245=CARTESIAN_POINT('',(183.36689984541,139.061713874564,0.));
#246=CARTESIAN_POINT('',(229.873872766802,149.071712182682,0.));
#247=CARTESIAN_POINT('',(184.801609132151,132.66674982867,0.));
#248=CARTESIAN_POINT('',(182.764359886302,138.26404612944,0.));
#249=CARTESIAN_POINT('',(184.753337614563,132.649180433105,0.));
#250=CARTESIAN_POINT('',(158.391723432607,123.054337543663,0.));
#251=(
GEOMETRIC_REPRESENTATION_CONTEXT(3)
GLOBAL_UNCERTAINTY_ASSIGNED_CONTEXT((#252))
GLOBAL_UNIT_ASSIGNED_CONTEXT((#258,#254,#253))
REPRESENTATION_CONTEXT('BH80','TOP_LEVEL_ASSEMBLY_PART')
);
#252=UNCERTAINTY_MEASURE_WITH_UNIT(LENGTH_MEASURE(2.E-005),#258,
'DISTANCE_ACCURACY_VALUE','Maximum Tolerance applied to model');
#253=(
NAMED_UNIT(*)
SI_UNIT($,.STERADIAN.)
SOLID_ANGLE_UNIT()
);
#254=(
CONVERSION_BASED_UNIT('DEGREE',#256)
NAMED_UNIT(#255)
PLANE_ANGLE_UNIT()
);
#255=DIMENSIONAL_EXPONENTS(0.,0.,0.,0.,0.,0.,0.);
#256=PLANE_ANGLE_MEASURE_WITH_UNIT(PLANE_ANGLE_MEASURE(0.0174532925),#257);
#257=(
NAMED_UNIT(*)
PLANE_ANGLE_UNIT()
SI_UNIT($,.RADIAN.)
);
#258=(
LENGTH_UNIT()
NAMED_UNIT(*)
SI_UNIT(.MILLI.,.METRE.)
);
ENDSEC;
END-ISO-10303-21;
